Guitar Tabs

Discussion in 'Musician's Corner' started by MCRfan2011, Feb 4, 2008.

  1. MCRfan2011

    MCRfan2011 New Member

    hey/. i thaught that we should have a thread where people ask for guitar tabs then post em. cause ive looked everywhere, and i was wondering if anyone has the tab to desert song,,.?!
     
  2. Don Ricalo

    Don Ricalo Panda Bear.

  3. SpaceRock

    SpaceRock Guest

  4. MCRfan2011

    MCRfan2011 New Member

    oh wow thanks. that has everything.
    ive been using e-tabs.org and that doesnt have poop
     
  5. RachelS

    RachelS New Member

    I think this is the right place to ask this.
    When you're writing tabs, how do you write a bend?
     
  6. Don Ricalo

    Don Ricalo Panda Bear.

    |-----------8------|----------------------11-10-8-10-11-|
    |---------8---11-8-|-11b13=======(11)r----------------|
    |------------------|-------------------------------------|
    |------------------|-------------------------------------|
    |------------------|-------------------------------------|
    |------------------|-------------------------------------|

    The 11b13 would be the bend.
     
  7. RachelS

    RachelS New Member

    So you bend the 11? Or the 13?
    Sorry about all the questions.
     
  8. Don Ricalo

    Don Ricalo Panda Bear.

    Bend the 11 so it sounds like a 13.
     
  9. RachelS

    RachelS New Member

    Ahh okay. Thank you. :)
     
  10. I need tabs for I'm Not Okay(I promise) but I can only play the intro and other tabs don't work. I've also tried youtube. i don't have guitar pro or anything like that. help?
     
  11. If anyone can find me the tabs for the full song of A Simple Message by For Felix (not just the intro) i will love you forever.
     
  12. welcomeXtoXlife

    welcomeXtoXlife New Member

    you could use 911Tabs - tabs search engine // 3,500,000 tabs. Guitar, bass, drums, guitar pro and power tabs! or ULTIMATE GUITAR TABS ARCHIVE | 300,000+ Guitar Tabs, Bass Tabs, Chords and Guitar Pro Tabs! normally there are tab books but i cant find any for MCR, there are some websites where you can order/download tab but that costs money and i dont know the prices. and as a last resort you could download power tab/guitar pro but that really depends on your playing ability
     
  13. welcomeXtoXlife

    welcomeXtoXlife New Member

  14. welcomeXtoXlife

    welcomeXtoXlife New Member

  15. XxPatchie97xX

    XxPatchie97xX Member

    Bulletproof Heart, anyone? It's off the new My Chem album and I think it's extremely cool, but the three tabs I found were, well, sucky. Help? Any awesome tabbers there willing to tab this song?
     
  16. xxXXAlaNXXxx

    xxXXAlaNXXxx Member

    Bulletproof Heart tab by My Chemical Romance @ Ultimate-Guitar.Com

    it worked for me (a little off in some parts but, still good tab)
     
  17. PlanetaryGoGo

    PlanetaryGoGo Media Division

    Does anyone have the bass tabs for Sing?
    I'm improvising at the moment and want to have some confirmation that I'm not totally off tune.
     
  18. xxXXAlaNXXxx

    xxXXAlaNXXxx Member

    Bass comes in at 0:27 (“Everytime…”)

    G-------------------------------------------------------------------|
    D-------------------------------------------------------------------|
    A-7~---5~---0~---3-5-7~---5~---0~---3~------------------------------|
    E-------------------------------------------------------------------|

    Chorus (Sing it for the boys…)

    G---------------------------------------------------|
    D---------------------------------------------------|
    A-------555~-5777~-7777~-7--------------------------|
    E-333~-3--------------------------------------------|

    (Sing it from the heart…)

    G---------------------------------------------------|
    D---------------------------------------------------|
    A-333~-3------555~-5555~-5777~-7333~-3------555~-5--|
    E-------333~-3------------------------333~-3--------|

    (Sing it for the world…)

    G---------------------------------------------------|
    D---------------------------------------------------|
    A-000~-0555~-57~------------------------------------|
    E---------------------------------------------------|

    (no bass in verse II until 1:35)

    G-------------------------------------------------------------------|
    D-------------------------------------------------------------------|
    A-7~---5~---0~---3-5-7~---5~---0~---3~------------------------------|
    E-------------------------------------------------------------------|

    Chorus II

    (Sing it for the boys…)
    G---------------------------------------------------|
    D---------------------------------------------------|
    A-------555~-5777~-7777~-7--------------------------|
    E-333~-3--------------------------------------------|

    (Sing it from the heart…)

    G---------------------------------------------------|
    D---------------------------------------------------|
    A-333~-3------555~-5555~-5777~-7333~-3------555~-5--|
    E-------333~-3------------------------333~-3--------|

    (Sing it for the world…)

    G---------------------------------------------------|
    D---------------------------------------------------|
    A-000~-0555~-5--------------------------------------|
    E---------------------------------------------------|

    (Don’t play the “E” this time)

    Bridge (2:31):


    G---------------------------------------------------|
    D---------------------------------------------------|
    A-77~7-10-7-97--------------------------------------| x 16
    E---------------------------------------------------| (Not 100% sure on this part) Listen for the timing

    Final Chorus

    (Sing it for the boys…)

    G---------------------------------------------------|
    D---------------------------------------------------|
    A-------555~-5777~-7777~-7--------------------------|
    E-333~-3--------------------------------------------|

    (Sing it from the heart…)

    G---------------------------------------------------|
    D---------------------------------------------------|
    A-333~-3------555~-5555~-5777~-7333~-3------555~-5--|
    E-------333~-3------------------------333~-3--------|

    (Sing it for the world…)

    G---------------------------------------------------|
    D---------------------------------------------------|
    A-000~-0555~-5777~-7--------------------------------|
    E---------------------------------------------------| x2

    G---------------------------------------------------|
    D---------------------------------------------------|
    A-000~-0555~-57~------------------------------------|
    E---------------------------------------------------|

    Outro (4:04)

    G----------------------------------------------------------------------|
    D----------------------------------------------------------------------|
    A------------------5555555555555555-0000000000000000-33333333-55555555-|
    E-0000000000000000-----------------------------------------------------|

    G----------------------------------------------------------------------|
    D----------------------------------------------------------------------|
    A------------------5555555555555555-0000000000000000-33333333-55555555-|
    E-0000000000000000-----------------------------------------------------| (played very fast and soft)
     
  19. PlanetaryGoGo

    PlanetaryGoGo Media Division

    Thanks a million times. :wub:
     
  20. xxXXAlaNXXxx

    xxXXAlaNXXxx Member

    glad to help any MCR fan!!

    BTW, I forgot to mention that there are some parts that are difficult to hear so I'm not 100% sure about them...
     

Share This Page